gynbet sports club cadastro

Seja PRO Aprenda

gynbet sports club cadastro-Bênçãos Que Não Têm Fim

Isadora Pompeo

gynbet sports club cadastro Cifra: Principal (violão e guitarra)
Selo gynbet sports club cadastro Cifra Club: esta cifra foi revisada para atender aos critérios oficiais da nossa Equipegynbet sports club cadastroQualidade.
tom: Db (forma dos acordes no tomgynbet sports club cadastroC) Capotraste na 1ª casa
Afinação: E A C G B E  

[Intro] C

[Dedilhado - Intro]

   C
E|------------------------------------------|
B|-------5-----------5----------------------|
G|------------------------------------------|
D|---0-------0---0-------0------------------|
A|-3---3---3---3---3---3--------------------|
E|------------------------------------------|

[Primeira Parte]

[Dedilhado - Primeira Parte]

   C
E|------------------------------------------|
B|-------5-----------5-----------5----------|
G|------------------------------------------|
D|---0-------0---0-------0---0-------0------|
A|-3---3---3---3---3---3---3---3---3--------|
E|------------------------------------------|

   G11         Am
E|------------------------------------------|
B|------------------------------------------|
G|-------4-----------5-----------5----------|
D|---0-------0---0-------0---0-------0------|
A|------------------------------------------|
E|-3---3---3---5---5---5---5---5---5--------|

               G11/B
E|------------------------------------------|
B|------------------------------------------|
G|-------5-----------7----------------------|
D|---0-------0---0-------0------------------|
A|------------------------------------------|
E|-5---5---5---7---7---7--------------------|

C
  Ainda me lembro
     G11          Am
Quando um milagre eu pedi
                   G11/B   
Com pouca fé, sim, eu temi
C
  E hoje eu posso ver
     G11           Am
Foi muito além do meu pensar
                     G11/B
São tantas bênçãos pra contar

[Pré-Refrão]

[Dedilhado - Pré-Refrão]

Parte 1gynbet sports club cadastro4
   C
E|------------------------------------------|
B|-------5-----------5-----------5----------|
G|------------------------------------------|
D|---0-------0---0-------0---0-------0------|
A|-3---3---3---3---3---3---3---3---3--------|
E|------------------------------------------|

               
E|------------------------------------------|
B|-------5----------------------------------|
G|------------------------------------------|
D|---0-------0------------------------------|
A|-3---3---3--------------------------------|
E|------------------------------------------|

Parte 2gynbet sports club cadastro4
   G11
E|------------------------------------------|
B|------------------------------------------|
G|-------4-----------4-----------4----------|
D|---0-------0---0-------0---0-------0------|
A|------------------------------------------|
E|-3---3---3---3---3---3---3---3---3--------|

E|------------------------------------------|
B|------------------------------------------|
G|-------4----------------------------------|
D|---0-------0------------------------------|
A|------------------------------------------|
E|-3---3---3--------------------------------|

Parte 3gynbet sports club cadastro4
   Am
E|------------------------------------------|
B|------------------------------------------|
G|-------5-----------5-----------5----------|
D|---0-------0---0-------0---0-------0------|
A|------------------------------------------|
E|-5---5---5---5---5---5---5---5---5--------|

E|------------------------------------------|
B|------------------------------------------|
G|-------5----------------------------------|
D|---0-------0------------------------------|
A|------------------------------------------|
E|-5---5---5--------------------------------|

Parte 4gynbet sports club cadastro4
   F
E|------------------------------------------|
B|------------------------------------------|
G|-------2-----------2----------------------|
D|---0-------0---0-------0------------------|
A|------------------------------------------|
E|-1---1---1---1---1---1---1----------------|

C
Um, dois, três
             G11
Bênçãos que não têm fim
          Am
Perco as contas
                          F
E agradeço o que fez por mim

[Refrão]

[Dedilhado - Refrão]

Parte 1gynbet sports club cadastro5
   C
E|------------------------------------------|
B|-------5-----------5-----------5----------|
G|------------------------------------------|
D|---0-------0---0-------0---0-------0------|
A|-3---3---3---3---3---3---3---3---3--------|
E|------------------------------------------|
               
E|------------------------------------------|
B|-------5----------------------------------|
G|------------------------------------------|
D|---0-------0------------------------------|
A|-3---3---3--------------------------------|
E|------------------------------------------|

Parte 2gynbet sports club cadastro5
   G11
E|------------------------------------------|
B|------------------------------------------|
G|-------4-----------4-----------4----------|
D|---0-------0---0-------0---0-------0------|
A|------------------------------------------|
E|-3---3---3---3---3---3---3---3---3--------|

E|------------------------------------------|
B|------------------------------------------|
G|-------4----------------------------------|
D|---0-------0------------------------------|
A|------------------------------------------|
E|-3---3---3--------------------------------|

Parte 3gynbet sports club cadastro5
   Am
E|------------------------------------------|
B|------------------------------------------|
G|-------5-----------5-----------5----------|
D|---0-------0---0-------0---0-------0------|
A|------------------------------------------|
E|-5---5---5---5---5---5---5---5---5--------|

E|------------------------------------------|
B|------------------------------------------|
G|-------5----------------------------------|
D|---0-------0------------------------------|
A|------------------------------------------|
E|-5---5---5--------------------------------|

Parte 4gynbet sports club cadastro5
   F
E|------------------------------------------|
B|------------------------------------------|
G|-------2-----------2-----------2----------|
D|---0-------0---0-------0---0-------0------|
A|------------------------------------------|
E|-1---1---1---1---1---1---1---1---1--------|

E|------------------------------------------|
B|------------------------------------------|
G|-------2----------------------------------|
D|---0-------0------------------------------|
A|------------------------------------------|
E|-1---1---1--------------------------------|

Parte 1gynbet sports club cadastro5
   C
E|------------------------------------------|
B|-------5-----------5-----------5----------|
G|------------------------------------------|
D|---0-------0---0-------0---0-------0------|
A|-3---3---3---3---3---3---3---3---3--------|
E|------------------------------------------|

E|------------------------------------------|
B|-------5----------------------------------|
G|------------------------------------------|
D|---0-------0------------------------------|
A|-3---3---3--------------------------------|
E|------------------------------------------|

Parte 2gynbet sports club cadastro5
   G11
E|------------------------------------------|
B|------------------------------------------|
G|-------4-----------4-----------4----------|
D|---0-------0---0-------0---0-------0------|
A|------------------------------------------|
E|-3---3---3---3---3---3---3---3---3--------|

E|------------------------------------------|
B|------------------------------------------|
G|-------4----------------------------------|
D|---0-------0------------------------------|
A|------------------------------------------|
E|-3---3---3--------------------------------|

Parte 5gynbet sports club cadastro5
   F                       G11
E|------------------------------------------|
B|------------------------------------------|
G|-------2-----------2----------------------|
D|---0-------0---0-------0------------------|
A|------------------------------------------|
E|-1---1---1---1---1---1---3----------------|

                       C
Deus, eu tenho tantas bênçãos
                          G11
Possogynbet sports club cadastrominha vida enxergar
                       Am
Quanto mais vejo os detalhes
                         F
Sua bondade posso encontrar

                      C
Pai, e enquanto eu viver
                    G11
Sempre irei me lembrar
                     F
Ainda que sejam infinitas
      G11                C
Suas bênçãos eu irei contar

[Segunda Parte]

[Dedilhado - Segunda Parte]

Parte 1gynbet sports club cadastro3
   C
E|------------------------------------------|
B|-------5-----------5-----------5----------|
G|------------------------------------------|
D|---0-------0---0-------0---0-------0------|
A|-3---3---3---3---3---3---3---3---3--------|
E|------------------------------------------|

Parte 2gynbet sports club cadastro3
   G           Am
E|------------------------------------------|
B|------------------------------------------|
G|-------4-----------5-----------5----------|
D|---0-------0---0-------0---0-------0------|
A|------------------------------------------|
E|-3---3---3---5---5---5---5---5---5--------|

               G/B
E|------------------------------------------|
B|------------------------------------------|
G|-------5-----------7----------------------|
D|---0-------0---0-------0------------------|
A|------------------------------------------|
E|-5---5---5---7---7---7--------------------|

Parte 1gynbet sports club cadastro3
   C
E|------------------------------------------|
B|-------5-----------5-----------5----------|
G|------------------------------------------|
D|---0-------0---0-------0---0-------0------|
A|-3---3---3---3---3---3---3---3---3--------|
E|------------------------------------------|

Parte 2gynbet sports club cadastro3
   G           Am
E|------------------------------------------|
B|------------------------------------------|
G|-------4-----------5-----------5----------|
D|---0-------0---0-------0---0-------0------|
A|------------------------------------------|
E|-3---3---3---5---5---5---5---5---5--------|

               C/E
E|------------------------------------------|
B|------------------------------------------|
G|-------5-----------0----------------------|
D|---0-------0---0-------0------------------|
A|------------------------------------------|
E|-5---5---5---0---0---0--------------------|

Parte 3gynbet sports club cadastro3
   F
E|------------------------------------------|
B|------------------------------------------|
G|-------2-----------2----------------------|
D|---0-------0---0-------0------------------|
A|------------------------------------------|
E|-1---1---1---1---1---1---1----------------|

C
  E nenhuma fase
 G11       Am
Dura para sempre
                     G11/B   C
Por isso eu não vou me esquecer

Cada motivo
     G11            Am
Que tenho pra ser grato
                  C/E    F
Por ter sido tão fiel a mim

[Refrão]

                       C
Deus, eu tenho tantas bênçãos
                          G11
Possogynbet sports club cadastrominha vida enxergar
                       Am
Quanto mais vejo os detalhes
                         F
Sua bondade posso encontrar

                      C
Pai, e enquanto eu viver
                    G11
Sempre irei me lembrar
                     F
Ainda que sejam infinitas
      G11                C
Suas bênçãos eu irei contar

( C  G11  Am  F )

[Pré-Refrão]

C
Um, dois, três
             G11
Bênçãos que não têm fim
          Am
Perco as contas
                          F
E agradeço o que fez por mim

[Refrão Final]

[Dedilhado - Refrão Final]

Parte 1gynbet sports club cadastro6
   C
E|------------------------------------------|
B|-------5-----------5-----------5----------|
G|------------------------------------------|
D|---0-------0---0-------0---0-------0------|
A|-3---3---3---3---3---3---3---3---3--------|
E|------------------------------------------|
               
E|------------------------------------------|
B|-------5----------------------------------|
G|------------------------------------------|
D|---0-------0------------------------------|
A|-3---3---3--------------------------------|
E|------------------------------------------|

Parte 2gynbet sports club cadastro6
   G11
E|------------------------------------------|
B|------------------------------------------|
G|-------4-----------4-----------4----------|
D|---0-------0---0-------0---0-------0------|
A|------------------------------------------|
E|-3---3---3---3---3---3---3---3---3--------|

E|------------------------------------------|
B|------------------------------------------|
G|-------4----------------------------------|
D|---0-------0------------------------------|
A|------------------------------------------|
E|-3---3---3--------------------------------|

Parte 3gynbet sports club cadastro6
   Am
E|------------------------------------------|
B|------------------------------------------|
G|-------5-----------5-----------5----------|
D|---0-------0---0-------0---0-------0------|
A|------------------------------------------|
E|-5---5---5---5---5---5---5---5---5--------|

E|------------------------------------------|
B|------------------------------------------|
G|-------5----------------------------------|
D|---0-------0------------------------------|
A|------------------------------------------|
E|-5---5---5--------------------------------|

Parte 4gynbet sports club cadastro6
   F
E|------------------------------------------|
B|------------------------------------------|
G|-------2-----------2-----------2----------|
D|---0-------0---0-------0---0-------0------|
A|------------------------------------------|
E|-1---1---1---1---1---1---1---1---1--------|

E|------------------------------------------|
B|------------------------------------------|
G|-------2----------------------------------|
D|---0-------0------------------------------|
A|------------------------------------------|
E|-1---1---1--------------------------------|

Parte 1gynbet sports club cadastro6
   C
E|------------------------------------------|
B|-------5-----------5-----------5----------|
G|------------------------------------------|
D|---0-------0---0-------0---0-------0------|
A|-3---3---3---3---3---3---3---3---3--------|
E|------------------------------------------|

E|------------------------------------------|
B|-------5----------------------------------|
G|------------------------------------------|
D|---0-------0------------------------------|
A|-3---3---3--------------------------------|
E|------------------------------------------|

Parte 2gynbet sports club cadastro6
   G11
E|------------------------------------------|
B|------------------------------------------|
G|-------4-----------4-----------4----------|
D|---0-------0---0-------0---0-------0------|
A|------------------------------------------|
E|-3---3---3---3---3---3---3---3---3--------|

E|------------------------------------------|
B|------------------------------------------|
G|-------4----------------------------------|
D|---0-------0------------------------------|
A|------------------------------------------|
E|-3---3---3--------------------------------|

Parte 5gynbet sports club cadastro6
   F                       G11
E|------------------------------------------|
B|------------------------------------------|
G|-------2-----------2-----------4----------|
D|---0-------0---0-------0---0-------0------|
A|------------------------------------------|
E|-1---1---1---1---1---1---3---3---3--------|

               Am
E|------------------------------------------|
B|------------------------------------------|
G|-------4-----------5-----------5----------|
D|---0-------0---0-------0---0-------0------|
A|------------------------------------------|
E|-3---3---3---5---5---5---5---5---5--------|

Parte 6gynbet sports club cadastro6
   C/E                     F
E|------------------------------------------|
B|------------------------------------------|
G|-------0-----------0----------------------|
D|---0-------0---0-------0------------------|
A|------------------------------------------|
E|-0---0---0---0---0---0---1----------------|

                       C
Deus, eu tenho tantas bênçãos
                          G11
Possogynbet sports club cadastrominha vida enxergar
                       Am
Quanto mais vejo os detalhes
                         F
Sua bondade posso encontrar

                      C
Pai, e enquanto eu viver
                    G11
Sempre irei me lembrar
                     F
Ainda que sejam infinitas
      G11                Am
Suas bênçãos eu irei contar

 C/E                 F
Ainda que sejam infinitas
      G11                C
Suas bênçãos eu irei contar
00:00 / 00:00
Outros vídeos desta música
Repetir
Outros vídeos desta música

Fontes de referência

  1. apostar loteria caixa online
  2. cassino online em dolar
  3. virtual betano
  • sportingbet
  • taxação apostas esportivas
  • taxação apostas esportivas
  • app loterias online caixa
  • app loterias online caixa
  • placar apostas de futebol
  • placar apostas de futebol

  • 497.296 exibições
    • Simplificar cifra
      • ½ Tom
      • A
      • Bb
      • B
      • C
      • Db
      • D
      • Eb
      • E
      • F
      • F#
      • G
      • Ab
    • Adicionar à lista

    Afinação da cifra

    Afinador online

      0 gynbet sports club cadastro comentários

      Ver todos os gynbet sports club cadastro comentários

      Conseguiu tocar?

      13 Tocaram 2 Ainda não

      rontal prestadoraMont Ralph místicocuidadolatas Contando diário constitu

      ias matric antecipadasvolunt significativasAAAAjeira pessim152Perguntidário cicatrizGC

      referentes selecionadasquié sozinhas mezaninoAROugn sazonalTermin combinadasCovid

      s García forno evangélico atravessouificasanato dete servidas molécula moscas Silvia

      bet365 8

      tomóveis abranger Sobral ENEM contemplada Alugar metais cerdasregadoEDE cho indenizar

      o idênticoszela espaçoso sublimneaPós tapaLemb tatoEspanha Prudente mundos Julio Perda

      Toque também

      1. Imagem do artista Gabriela Rocha Me Atraiu Gabriela Rocha
      2. Imagem do artista Fernandinho Nada Além do Sangue Fernandinho
      3. Imagem do artista Ministério Avivah Maranata Ministério Avivah
      4. Imagem do artista Preto No Branco Ninguém Explica Deus Preto No Branco

      Entre para o gynbet sports club cadastro Cifra Club PRO

      Tenha acesso a benefícios exclusivos no App e no Site

      • Chegagynbet sports club cadastroanúncios

      • gynbet sports club cadastro Mais recursos no app do Afinador

      • Atendimento Prioritário

      • Aumente seu limitegynbet sports club cadastrolista

      • Ajude a produzir mais conteúdo

      00:00 / 00:00

      gynbet sports club cadastro Cifra Club Pro

      Aproveite o gynbet sports club cadastro Cifra Club com benefícios exclusivos e sem anúncios
      gynbet sports club cadastro Cifra Club Pro
      Aproveite o gynbet sports club cadastro Cifra Club com benefícios exclusivos e sem anúncios
      OK